Avatar theanimal_tuning

MITSUBISHI LANCER

THE ANIMAL TUNING
VALDIVIA




On February 17 2009 42 Views



Avatar juanxo_wrx

Juanxo_wrx On 05/03/2009

saludos amigos xaoo


Avatar jorgimotors

Jorgimotors On 05/03/2009

hola te cuento somos del team torque de loncoche y estamos organizando junto con la municipalidad... dentro de la expoloncoche 2009 .... el 2º encuentro tunning a realzarse el dia 21 de marzo alas 16:00 hrs .................................................................. nececito un numero donde contactarnos con ustedes ya que nosotro vamos el sabado 7 a valdivia para entregarles personalmente la invitacion formal .............

consultas a los fonos 74111025 ( jorge )
83500447 ( victor torres)................................... esperamos su respuesta lomas rapido posible
.................... gracias .....









team torque..............
loncoche..........


Avatar x_tuningneed_x

X_tuningneed_x On 04/03/2009

estam filete esa llantas q numero son pasay por mi flog...shao
el lancer esta weno.....
---------------------------------------------------------------
--------------160-----180-----------------------------------
-------140------------------200---------------Christian----
----------------------------------------------------scp--------
----120--------------------------220-----------------------
--------------------------------------------------------------
-100------------------------------240---------5--6--7------
--------------------o------------------------4----------/-8---
--80----------------\\------------260------3--------//----9--
----------------------\\---------------------2-------o------10-
---60------------------\\-------280--------1-------------11--
----40------------------\\-------------------0-----------12----
------20------------------\--300-----------------RPM--------
----------0----- km/h ---320-------------- x_tuningneed_x
------------------------------------------------------------------
X_:::::::::: www.fotolog.com/X_tuningneed_X :::::::::::::::_X


Avatar djandy_42

Djandy_42 On 03/03/2009

paso por est log para felicitart
por el buen auto q tienes
aca tenemos pero no tan bueno como ese
puedes verlos en www.fotolog.com/rpm_tuning_angol nada mas q decir xaooooooooo men


Default Avatar

Lah_biikoxz On 03/03/2009

linda kodak
te kuidass adeoss


te passass



xaizzzz



*****viitah****


Avatar laa_xinitaa

Laa_xinitaa On 28/02/2009

liinda foto ..agregueen !!saludos


Avatar oscarsb_08

Oscarsb_08 On 26/02/2009

____¶____________¶¶¶____________¶
_____¶¶_________¶¶*¶¶_________¶¶
______¶¶¶¶_____¶¶*¶*¶¶_____¶¶¶¶
_______¶¶*¶¶__¶¶*¶¶¶*¶¶__¶¶*¶¶
________¶¶*¶¶¶¶*¶¶¶¶¶*¶¶¶¶*¶¶
¶________¶¶¶¶¶¶¶¶¶¶¶¶¶¶¶¶¶¶¶________¶
________(`*•.ž (`*•.ž ž.•*Ž) ž.•* )__________
____..::•.ž ...* ooossskkaaarrr...*
jj audio
.•::......___
_______...(ž.•* (ž.•*Ž `*•.ž) *•.ž).. ________

K ONDA AKI NMS DE PASO POR SU FLOG

SBS

RETACHA AL MIO


oscarsb2008@...

chido su flog


Avatar urania_motor_oil

Urania_motor_oil On 26/02/2009

Salute


Avatar criss_niviaa

Criss_niviaa On 22/02/2009

SHH I IO NO ALKANSE PA LINK JOAjoAJOajojaO

:O


Avatar pazzi00n_tuning

Pazzi00n_tuning On 22/02/2009

OLAS M PASO DEL CORTE LA JOTO OIE T AVISO TAY ENFF DALE PA NO SAKRTE CUIDATE XA
--------------160-----180----------------
-------140------------------200----------
-----------------------------------------
----120--------------------------220-----
-----------------------------------------
-100------------------------------240----
--------------------o--------------------
-80-----------------\\-----------260-----
----------------------\\-----------------
---60------------------\\-------280------
----40------------------\\---------------
------20-----------------\\--300---------
----------0----- km/h ---320-------------

UU


Avatar by_mackiithaxh

By_mackiithaxh On 20/02/2009

Olaa Muy Lindo su fotolog :D en FFS ! Los autos filetes :P


Avatar 7car7

7car7 On 19/02/2009

Hola, bonita la foto, esa es del eventu tuning de la saval en valdivia, yo igual fui a ese evento, estubo bueno, cuidate, chao


Avatar mohamed_forever

Mohamed_forever On 19/02/2009

ola!!



http://www.youtube.com/watch?v=q9wJlKiMzOY



me pasooo


Avatar terryx_k

Terryx_k On 19/02/2009

ese mitsubishi lancer tiene un ensanshe muy weno !!!

esta filete la wea !!


xd

saludos

eesperando otra expo !!

:D

adioz


Default Avatar

Migue__1 On 18/02/2009

mmmmmmmm

auto de mi primo marco

saluos a toos

qsten bkn

xausssssssssssss


Show all comments


Tag - Chica
Loading ...