Avatar recifcars

Mitsubishe Eclipse

Hoje vamos com o flagra de um Eclipse de uma geração rara de se ver!

Foto enviada pelo Lapeta, valeeeu!

Não esqueçam de dar uma passadinha lá no fórum...
Clique aqui para ir ao Fórum Nordeste Cars:

http://www.nordestecars.myurl.com.br




On November 11 2009 61 Views



Avatar miami_style

Miami_style On 11/11/2009

HII!!!

Hey tengo un nuevo desafio, PASATE Y ADIVINA LA FOTO DE HOY...

Take Care

Cya



http://www.fotolog.com/miami_style


Avatar the_tunero

The_tunero On 11/11/2009

--------------210-----240-----------------------------------
-------180------------------270-----------------------------
-------------------------------------------------------------
----150--------------------------300-------------------------
--------------------------------------------------------------
--120------------------------------330----------5--6--7------
--------------------o------------------------4----------/8---
--90----------------\\------------360------3--------//----9--
----------------------\\-------------------2-------o------10-
---60------------------\\-------390--------1-------------11--
------------------------\\-------------------0---------12----
------30------------------\--420-----------------RPM--------
----------0----- km/h ---450---------------------------------
buena foto del eclipse^^ solo t pasaba a saludar y desearte una buena semana , k estes d lo mejo , suerte en todo bye,^^.....bye

............::::::::::::the_tunero::::::::::................


Avatar emcars

Emcars On 11/11/2009

Curto D+ esse carro!

Acho lindo!

Abraços


Avatar marcusvieira

Marcusvieira On 11/11/2009

Maneiro, preto fica bem do mal! :D

: ]


Avatar exoticosnobrasil

Exoticosnobrasil On 11/11/2009

lindo


Avatar felipe_vap

Felipe_vap On 11/11/2009

eh lindo!

abraços.


Avatar salvador_cars

Salvador_cars On 11/11/2009

Aqui não emplacou não, temos uns 3 ou 4...


Avatar balneariocamb

Balneariocamb On 11/11/2009

aqui não é raro de se ver :S





Tag - Modelo
Loading ...