Avatar bandolero_tuning

Bandolero_tuning On 11/08/2008

-------5---6-------- -------80--100----------
----4-------/--7---- ----60---------120------
--3--------/-----8-- --40----------/--140----
-2--------/-------9- -30----------/-----160--
1-------o----------- 20-------o----------180-
0------------------- 10-----D Y T O-----200
--------RPM--------- ------ --MPH-- ---------


ta weno el toko mocho ia k ti proo
xauu
pasate por mi log xau


www.fotolog.com/bandolero_tuning





-------5---6-------- -------80--100----------
----4-------/--7---- ----60---------120------
--3--------/-----8-- --40----------/--140----
-2--------/-------9- -30----------/-----160--
1-------o----------- 20-------o----------180-
0------------------- 10-----D Y T O-----200
--------RPM--------- ------ --MPH-- ---------


Avatar ezequiel_lsi

Ezequiel_lsi On 11/08/2008

lindo coche...

cuando se pasan che???jajjajajaj

besos

eze




n_i_s_s_a_n_v16

Favorite

1979 Photos

Este grupo es para que puedan mostrar sus autos tal como los tengan y recibir los comentarios de todos , por cierto deben ser de la marca y modelo de cualquiera de la lista.




14 Favorites Groups »

  • creacion_renault

    Creacion_renault

    Este sera un grupo orientado a los autos de la marca Renault. Para que todos los usuarios de la marca puedan subir sus autos.


  • mundo_chevrolet

    Mundo_chevrolet

    Bienvenido MUNDO CHEVROLET.
    fotolog de usuarios, fanaticos e hinchas de Chevrolet.




Tag - Felicidad
Loading ...