Avatar millaray

=D

Leeendo pos...
nos vemos el jueves muchachos




On November 25 2008 150 Views



Avatar the_car__ur

The_car__ur On 09/12/2008

--------------120-----140-----------------------------------
-------100------------------160-----------------------------
--------------------------------------------------------------
----80--------------------------180-------------------------
--------------------------------------------------------------
--60------------------------------200-----------5---6-------
--------------------o------------------------4--------/--7---
--40----------------\\------------220------3-------//-----8-
----------------------\\-------------------2-------o-------9-
---20------------------\\-------240-------1--------------10-
-------------------------\\------------------0-----------11--
-------0-----------k/h----\--260----------------RPM-------

LOS ESPERO EN MI LOG /// SEN II

http://www.fotolog.com/the_car__ur


Avatar diego_purojugo

Diego_purojugo On 26/11/2008

olaa ... ke esthi iem...
pasa x mi log


Avatar the_car__ur

The_car__ur On 26/11/2008

WAA
MUY LIDA
LA JOTITO
JAJAJAJA
LO CUIDAS
XAUXXZZZ


Avatar trash0xalo

Trash0xalo On 26/11/2008

se parece a mi gatita... bueno ya no es mia pero da igual
saludos
XaU


Avatar carlita_inlove

Carlita_inlove On 26/11/2008

he is axel ...¬¬
te ami
=D




5 Favorites Groups »

  • converse

    Converse

    - Español -
    Converse, es una empresa dedicada a la moda, mas conocida por los famosos zapatos de gran calidad y comodidad, además producen algunos tipos de vestimentas.

    - English -
    Converse, is a company dedicated to fashion, best known for the famous shoes of great quality and comfort, also produce some types of clothing.

    - Portugués -
    Converse é uma empresa dedicada à moda (calçados e tipos de roupa)

    All Star Converse
    It's Converse for Comfort


  • puccagroup

    Puccagroup

    Hey! Este fotolog se trata de PUCCA, la historia, los personajes, y todos aquellos objetos, juguetes, ropa y demas que muestre algo de Pucca. En este fotolog grupo te podras sentir libre para cargar tu imagen QUE TENGA ALGO DE PUCCA Y/O SU MUNDO,-




Tag - Food
Loading ...